  0
SECTION
  2
HEADER
  9
$ACADVER
  1
AC1015
  9
$ACADMAINTVER
 70
     6
  9
$DWGCODEPAGE
  3
ANSI_1254
  9
$INSBASE
 10
0.0
 20
0.0
 30
0.0
  9
$EXTMIN
 10
0.0
 20
0.0
 30
0.0
  9
$EXTMAX
 10
279.4
 20
215.9
 30
0.0
  9
$LIMMIN
 10
0.0
 20
0.0
  9
$LIMMAX
 10
279.4
 20
215.9
  9
$ORTHOMODE
 70
     0
  9
$REGENMODE
 70
     1
  9
$FILLMODE
 70
     1
  9
$QTEXTMODE
 70
     0
  9
$MIRRTEXT
 70
     1
  9
$LTSCALE
 40
1.0
  9
$ATTMODE
 70
     1
  9
$TEXTSIZE
 40
3.5
  9
$TRACEWID
 40
1.0
  9
$TEXTSTYLE
  7
Standard
  9
$CLAYER
  8
0
  9
$CELTYPE
  6
ByLayer
  9
$CECOLOR
 62
   256
  9
$CELTSCALE
 40
1.0
  9
$DISPSILH
 70
     0
  9
$DIMSCALE
 40
1.0
  9
$DIMASZ
 40
3.5
  9
$DIMEXO
 40
1.0
  9
$DIMDLI
 40
3.75
  9
$DIMRND
 40
0.0
  9
$DIMDLE
 40
0.0
  9
$DIMEXE
 40
1.0
  9
$DIMTP
 40
0.0
  9
$DIMTM
 40
0.0
  9
$DIMTXT
 40
3.5
  9
$DIMCEN
 40
2.5
  9
$DIMTSZ
 40
0.0
  9
$DIMTOL
 70
     0
  9
$DIMLIM
 70
     0
  9
$DIMTIH
 70
     1
  9
$DIMTOH
 70
     1
  9
$DIMSE1
 70
     0
  9
$DIMSE2
 70
     0
  9
$DIMTAD
 70
     1
  9
$DIMZIN
 70
     0
  9
$DIMBLK
  1

  9
$DIMASO
 70
     1
  9
$DIMSHO
 70
     1
  9
$DIMPOST
  1

  9
$DIMAPOST
  1

  9
$DIMALT
 70
     0
  9
$DIMALTD
 70
     3
  9
$DIMALTF
 40
0.0393700787
  9
$DIMLFAC
 40
1.0
  9
$DIMTOFL
 70
     1
  9
$DIMTVP
 40
0.0
  9
$DIMTIX
 70
     0
  9
$DIMSOXD
 70
     0
  9
$DIMSAH
 70
     0
  9
$DIMBLK1
  1

  9
$DIMBLK2
  1

  9
$DIMSTYLE
  2
ISO-25
  9
$DIMCLRD
 70
     0
  9
$DIMCLRE
 70
     0
  9
$DIMCLRT
 70
     0
  9
$DIMTFAC
 40
1.0
  9
$DIMGAP
 40
1.524
  9
$DIMJUST
 70
     0
  9
$DIMSD1
 70
     0
  9
$DIMSD2
 70
     0
  9
$DIMTOLJ
 70
     0
  9
$DIMTZIN
 70
     0
  9
$DIMALTZ
 70
     0
  9
$DIMALTTZ
 70
     0
  9
$DIMUPT
 70
     0
  9
$DIMDEC
 70
     2
  9
$DIMTDEC
 70
     2
  9
$DIMALTU
 70
     2
  9
$DIMALTTD
 70
     3
  9
$DIMTXSTY
  7
Standard
  9
$DIMAUNIT
 70
     0
  9
$DIMADEC
 70
     2
  9
$DIMALTRND
 40
0.0
  9
$DIMAZIN
 70
     0
  9
$DIMDSEP
 70
    44
  9
$DIMATFIT
 70
     3
  9
$DIMFRAC
 70
     0
  9
$DIMLDRBLK
  1

  9
$DIMLUNIT
 70
     2
  9
$DIMLWD
 70
    -2
  9
$DIMLWE
 70
    -2
  9
$DIMTMOVE
 70
     0
  9
$LUNITS
 70
     2
  9
$LUPREC
 70
     2
  9
$SKETCHINC
 40
1.0
  9
$FILLETRAD
 40
10.0
  9
$AUNITS
 70
     0
  9
$AUPREC
 70
     2
  9
$MENU
  1
.
  9
$ELEVATION
 40
0.0
  9
$PELEVATION
 40
0.0
  9
$THICKNESS
 40
0.0
  9
$LIMCHECK
 70
     0
  9
$CHAMFERA
 40
0.0
  9
$CHAMFERB
 40
0.0
  9
$CHAMFERC
 40
0.0
  9
$CHAMFERD
 40
0.0
  9
$SKPOLY
 70
     0
  9
$TDCREATE
 40
2458985.698417176
  9
$TDUCREATE
 40
2458985.573417176
  9
$TDUPDATE
 40
2458985.698417431
  9
$TDUUPDATE
 40
2458985.573417431
  9
$TDINDWG
 40
0.0000000116
  9
$TDUSRTIMER
 40
0.0000000116
  9
$USRTIMER
 70
     1
  9
$ANGBASE
 50
0.0
  9
$ANGDIR
 70
     0
  9
$PDMODE
 70
     0
  9
$PDSIZE
 40
-1.0
  9
$PLINEWID
 40
0.0
  9
$SPLFRAME
 70
     0
  9
$SPLINETYPE
 70
     6
  9
$SPLINESEGS
 70
     8
  9
$HANDSEED
  5
E9
  9
$SURFTAB1
 70
     6
  9
$SURFTAB2
 70
     6
  9
$SURFTYPE
 70
     6
  9
$SURFU
 70
     6
  9
$SURFV
 70
     6
  9
$UCSBASE
  2

  9
$UCSNAME
  2

  9
$UCSORG
 10
0.0
 20
0.0
 30
0.0
  9
$UCSXDIR
 10
1.0
 20
0.0
 30
0.0
  9
$UCSYDIR
 10
0.0
 20
1.0
 30
0.0
  9
$UCSORTHOREF
  2

  9
$UCSORTHOVIEW
 70
     0
  9
$UCSORGTOP
 10
0.0
 20
0.0
 30
0.0
  9
$UCSORGBOTTOM
 10
0.0
 20
0.0
 30
0.0
  9
$UCSORGLEFT
 10
0.0
 20
0.0
 30
0.0
  9
$UCSORGRIGHT
 10
0.0
 20
0.0
 30
0.0
  9
$UCSORGFRONT
 10
0.0
 20
0.0
 30
0.0
  9
$UCSORGBACK
 10
0.0
 20
0.0
 30
0.0
  9
$PUCSBASE
  2

  9
$PUCSNAME
  2

  9
$PUCSORG
 10
0.0
 20
0.0
 30
0.0
  9
$PUCSXDIR
 10
1.0
 20
0.0
 30
0.0
  9
$PUCSYDIR
 10
0.0
 20
1.0
 30
0.0
  9
$PUCSORTHOREF
  2

  9
$PUCSORTHOVIEW
 70
     0
  9
$PUCSORGTOP
 10
0.0
 20
0.0
 30
0.0
  9
$PUCSORGBOTTOM
 10
0.0
 20
0.0
 30
0.0
  9
$PUCSORGLEFT
 10
0.0
 20
0.0
 30
0.0
  9
$PUCSORGRIGHT
 10
0.0
 20
0.0
 30
0.0
  9
$PUCSORGFRONT
 10
0.0
 20
0.0
 30
0.0
  9
$PUCSORGBACK
 10
0.0
 20
0.0
 30
0.0
  9
$USERI1
 70
     0
  9
$USERI2
 70
     0
  9
$USERI3
 70
     0
  9
$USERI4
 70
     0
  9
$USERI5
 70
     0
  9
$USERR1
 40
0.0
  9
$USERR2
 40
0.0
  9
$USERR3
 40
0.0
  9
$USERR4
 40
0.0
  9
$USERR5
 40
0.0
  9
$WORLDVIEW
 70
     1
  9
$SHADEDGE
 70
     3
  9
$SHADEDIF
 70
    70
  9
$TILEMODE
 70
     1
  9
$MAXACTVP
 70
    64
  9
$PINSBASE
 10
0.0
 20
0.0
 30
0.0
  9
$PLIMCHECK
 70
     0
  9
$PEXTMIN
 10
1.0000000000E+20
 20
1.0000000000E+20
 30
1.0000000000E+20
  9
$PEXTMAX
 10
-1.0000000000E+20
 20
-1.0000000000E+20
 30
-1.0000000000E+20
  9
$PLIMMIN
 10
0.0
 20
0.0
  9
$PLIMMAX
 10
420.0
 20
297.0
  9
$UNITMODE
 70
     0
  9
$VISRETAIN
 70
     1
  9
$PLINEGEN
 70
     0
  9
$PSLTSCALE
 70
     1
  9
$TREEDEPTH
 70
  3020
  9
$CMLSTYLE
  2
Standard
  9
$CMLJUST
 70
     0
  9
$CMLSCALE
 40
20.0
  9
$PROXYGRAPHICS
 70
     1
  9
$MEASUREMENT
 70
     1
  9
$CELWEIGHT
370
    -1
  9
$ENDCAPS
280
     0
  9
$JOINSTYLE
280
     0
  9
$LWDISPLAY
290
     1
  9
$INSUNITS
 70
     4
  9
$HYPERLINKBASE
  1

  9
$STYLESHEET
  1

  9
$XEDIT
290
     1
  9
$CEPSNTYPE
380
     0
  9
$PSTYLEMODE
290
     1
  9
$FINGERPRINTGUID
  2
{5e772588-e4e2-4d13-88cf-3b4518a3ebe0}
  9
$VERSIONGUID
  2
{FAEB1C32-E019-11D5-929B-00C0DF256EC4}
  9
$EXTNAMES
290
     1
  9
$PSVPSCALE
 40
0.0
  9
$OLESTARTUP
290
     0
  0
ENDSEC
  0
SECTION
  2
CLASSES
  0
CLASS
  1
ACDBDICTIONARYWDFLT
  2
AcDbDictionaryWithDefault
  3
ObjectDBX Classes
 90
        0
280
     0
281
     0
  0
CLASS
  1
VISUALSTYLE
  2
AcDbVisualStyle
  3
ObjectDBX Classes
 90
     4095
280
     0
281
     0
  0
CLASS
  1
MATERIAL
  2
AcDbMaterial
  3
ObjectDBX Classes
 90
     1153
280
     0
281
     0
  0
CLASS
  1
SCALE
  2
AcDbScale
  3
ObjectDBX Classes
 90
     1153
280
     0
281
     0
  0
CLASS
  1
TABLESTYLE
  2
AcDbTableStyle
  3
ObjectDBX Classes
 90
     4095
280
     0
281
     0
  0
CLASS
  1
MLEADERSTYLE
  2
AcDbMLeaderStyle
  3
ACDB_MLEADERSTYLE_CLASS
 90
     4095
280
     0
281
     0
  0
CLASS
  1
SUN
  2
AcDbSun
  3
SCENEOE
 90
     1153
280
     0
281
     0
  0
CLASS
  1
ACDBPLACEHOLDER
  2
AcDbPlaceHolder
  3
ObjectDBX Classes
 90
        0
280
     0
281
     0
  0
CLASS
  1
LAYOUT
  2
AcDbLayout
  3
ObjectDBX Classes
 90
        0
280
     0
281
     0
  0
ENDSEC
  0
SECTION
  2
TABLES
  0
TABLE
  2
VPORT
  5
8
330
0
100
AcDbSymbolTable
 70
     1
  0
VPORT
  5
29
330
8
100
AcDbSymbolTableRecord
100
AcDbViewportTableRecord
  2
*Active
 70
     0
 10
0.0
 20
0.0
 11
1.0
 21
1.0
 12
139.7
 22
107.95
 13
0.0
 23
0.0
 14
10.0
 24
10.0
 15
10.0
 25
10.0
 16
0.0
 26
0.0
 36
1.0
 17
0.0
 27
0.0
 37
0.0
 40
215.9
 41
1.2941176471
 42
50.0
 43
0.0
 44
0.0
 50
0.0
 51
0.0
 71
     0
 72
  2000
 73
     1
 74
     3
 75
     0
 76
     0
 77
     0
 78
     0
281
     0
 65
     1
110
0.0
120
0.0
130
0.0
111
1.0
121
0.0
131
0.0
112
0.0
122
1.0
132
0.0
 79
     0
146
0.0
  0
ENDTAB
  0
TABLE
  2
LTYPE
  5
5
330
0
100
AcDbSymbolTable
 70
     6
  0
LTYPE
  5
14
330
5
100
AcDbSymbolTableRecord
100
AcDbLinetypeTableRecord
  2
ByBlock
 70
     0
  3

 72
    65
 73
     0
 40
0.0
  0
LTYPE
  5
15
330
5
100
AcDbSymbolTableRecord
100
AcDbLinetypeTableRecord
  2
ByLayer
 70
     0
  3

 72
    65
 73
     0
 40
0.0
  0
LTYPE
  5
16
330
5
100
AcDbSymbolTableRecord
100
AcDbLinetypeTableRecord
  2
Continuous
 70
     0
  3
Solid line
 72
    65
 73
     0
 40
0.0
  0
LTYPE
  5
6E
330
5
100
AcDbSymbolTableRecord
100
AcDbLinetypeTableRecord
  2
HIDDEN
 70
     0
  3
Hidden __ __ __ __ __ __ __ __ __ __ __ __ __ __
 72
    65
 73
     2
 40
1.905
 49
1.27
 74
     0
 49
-0.635
 74
     0
  0
LTYPE
  5
6F
330
5
100
AcDbSymbolTableRecord
100
AcDbLinetypeTableRecord
  2
PHANTOM
 70
     0
  3
Phantom ______  __  __  ______  __  __  ______
 72
    65
 73
     6
 40
12.7
 49
6.35
 74
     0
 49
-1.27
 74
     0
 49
1.27
 74
     0
 49
-1.27
 74
     0
 49
1.27
 74
     0
 49
-1.27
 74
     0
  0
LTYPE
  5
70
330
5
100
AcDbSymbolTableRecord
100
AcDbLinetypeTableRecord
  2
CENTER
 70
     0
  3
Center ____ _ ____ _ ____ _ ____ _ ____ _ ____
 72
    65
 73
     4
 40
10.16
 49
6.35
 74
     0
 49
-1.27
 74
     0
 49
1.27
 74
     0
 49
-1.27
 74
     0
  0
LTYPE
  5
71
330
5
100
AcDbSymbolTableRecord
100
AcDbLinetypeTableRecord
  2
CENTERX2
 70
     0
  3
Center (2x) ________  __  ________  __  _____
 72
    65
 73
     4
 40
20.32
 49
12.7
 74
     0
 49
-2.54
 74
     0
 49
2.54
 74
     0
 49
-2.54
 74
     0
  0
LTYPE
  5
72
330
5
100
AcDbSymbolTableRecord
100
AcDbLinetypeTableRecord
  2
DOT2
 70
     0
  3
Dot (.5x) ........................................
 72
    65
 73
     2
 40
0.635
 49
0.0
 74
     0
 49
-0.635
 74
     0
  0
ENDTAB
  0
TABLE
  2
LAYER
  5
2
330
0
100
AcDbSymbolTable
 70
    17
  0
LAYER
  5
10
330
2
100
AcDbSymbolTableRecord
100
AcDbLayerTableRecord
  2
0
 70
     0
 62
     7
  6
Continuous
370
    -3
390
F
  0
LAYER
  5
73
330
2
100
AcDbSymbolTableRecord
100
AcDbLayerTableRecord
  2
FORMAT
 70
     0
 62
     7
  6
Continuous
370
    -3
390
F
  0
LAYER
  5
74
330
2
100
AcDbSymbolTableRecord
100
AcDbLayerTableRecord
  2
YARDIMCI_GEOMETRI
 70
     0
 62
    -6
  6
Continuous
290
     0
370
    -3
390
F
  0
LAYER
  5
75
330
2
100
AcDbSymbolTableRecord
100
AcDbLayerTableRecord
  2
SAYFA_CERCEVESI
 70
     0
 62
     7
  6
Continuous
370
    25
390
F
  0
LAYER
  5
76
330
2
100
AcDbSymbolTableRecord
100
AcDbLayerTableRecord
  2
ANTET
 70
     0
 62
     7
  6
Continuous
370
    -3
390
F
  0
LAYER
  5
77
330
2
100
AcDbSymbolTableRecord
100
AcDbLayerTableRecord
  2
OLCU
 70
     0
 62
   150
  6
Continuous
370
    -3
390
F
  0
LAYER
  5
78
330
2
100
AcDbSymbolTableRecord
100
AcDbLayerTableRecord
  2
METIN
 70
     0
 62
    96
  6
Continuous
370
    -3
390
F
  0
LAYER
  5
79
330
2
100
AcDbSymbolTableRecord
100
AcDbLayerTableRecord
  2
BALON
 70
     0
 62
     5
  6
Continuous
370
    -3
390
F
  0
LAYER
  5
7A
330
2
100
AcDbSymbolTableRecord
100
AcDbLayerTableRecord
  2
VURGU
 70
     0
 62
     7
  6
Continuous
370
    -3
390
F
  0
LAYER
  5
7B
330
2
100
AcDbSymbolTableRecord
100
AcDbLayerTableRecord
  2
SILIK
 70
     0
 62
     7
  6
Continuous
370
    -3
390
F
  0
LAYER
  5
7C
330
2
100
AcDbSymbolTableRecord
100
AcDbLayerTableRecord
  2
MODEL
 70
     0
 62
     7
  6
Continuous
370
    -3
390
F
  0
LAYER
  5
7D
330
2
100
AcDbSymbolTableRecord
100
AcDbLayerTableRecord
  2
DETAYLANDıRMA
 70
     0
 62
   190
  6
Continuous
370
    -3
390
F
  0
LAYER
  5
7E
330
2
100
AcDbSymbolTableRecord
100
AcDbLayerTableRecord
  2
TOLERANS
 70
     0
 62
   230
  6
Continuous
370
    -3
390
F
  0
LAYER
  5
7F
330
2
100
AcDbSymbolTableRecord
100
AcDbLayerTableRecord
  2
MERKEZ_CIZGILERI
 70
     0
 62
    30
  6
Continuous
370
    -3
390
F
  0
LAYER
  5
80
330
2
100
AcDbSymbolTableRecord
100
AcDbLayerTableRecord
  2
KESIT-DETAY_CIZGILERI
 70
     0
 62
     7
  6
Continuous
370
    -3
390
F
  0
LAYER
  5
81
330
2
100
AcDbSymbolTableRecord
100
AcDbLayerTableRecord
  2
\U+041E\U+0421\U+0415\U+0412\U+042B\U+0415
 70
     0
 62
     7
  6
Continuous
370
    -3
390
F
  0
LAYER
  5
82
330
2
100
AcDbSymbolTableRecord
100
AcDbLayerTableRecord
  2
\U+0412\U+041E\U+0414\U+042F\U+041D\U+042B\U+0415_\U+0417\U+041D\U+0410\U+041A\U+0418
 70
     0
 62
    11
  6
Continuous
370
    -3
390
F
  0
ENDTAB
  0
TABLE
  2
STYLE
  5
3
330
0
100
AcDbSymbolTable
 70
     1
  0
STYLE
  5
11
330
3
100
AcDbSymbolTableRecord
100
AcDbTextStyleTableRecord
  2
Standard
 70
     0
 40
0.0
 41
1.0
 50
0.0
 71
     0
 42
3.5
  3
txt
  4

  0
ENDTAB
  0
TABLE
  2
VIEW
  5
6
330
0
100
AcDbSymbolTable
 70
     0
  0
ENDTAB
  0
TABLE
  2
UCS
  5
7
330
0
100
AcDbSymbolTable
 70
     0
  0
ENDTAB
  0
TABLE
  2
APPID
  5
9
330
0
100
AcDbSymbolTable
 70
     1
  0
APPID
  5
12
330
9
100
AcDbSymbolTableRecord
100
AcDbRegAppTableRecord
  2
ACAD
 70
     0
  0
ENDTAB
  0
TABLE
  2
DIMSTYLE
  5
A
330
0
100
AcDbSymbolTable
 70
     1
100
AcDbDimStyleTable
  0
DIMSTYLE
105
27
330
A
100
AcDbSymbolTableRecord
100
AcDbDimStyleTableRecord
  2
ISO-25
 70
     0
 41
2.5
 42
0.625
 43
3.75
 44
1.25
 73
     0
 74
     0
 77
     1
 78
     8
140
2.5
141
2.5
143
0.0393700787
147
0.625
171
     3
172
     1
178
     0
271
     2
272
     2
274
     3
278
    44
283
     0
284
     8
340
11
  0
ENDTAB
  0
TABLE
  2
BLOCK_RECORD
  5
1
330
0
100
AcDbSymbolTable
 70
     2
  0
BLOCK_RECORD
  5
1F
330
1
100
AcDbSymbolTableRecord
100
AcDbBlockTableRecord
  2
*Model_Space
340
22
  0
BLOCK_RECORD
  5
1B
330
1
100
AcDbSymbolTableRecord
100
AcDbBlockTableRecord
  2
*Paper_Space
340
1E
  0
BLOCK_RECORD
  5
23
330
1
100
AcDbSymbolTableRecord
100
AcDbBlockTableRecord
  2
*Paper_Space0
340
26
  0
BLOCK_RECORD
  5
88
330
1
100
AcDbSymbolTableRecord
100
AcDbBlockTableRecord
  2
SW_CENTERMARKSYMBOL_0
340
0
102
{BLKREFS
331
93
102
}
  0
ENDTAB
  0
ENDSEC
  0
SECTION
  2
BLOCKS
  0
BLOCK
  5
20
330
1F
100
AcDbEntity
  8
0
100
AcDbBlockBegin
  2
*Model_Space
 70
     0
 10
0.0
 20
0.0
 30
0.0
  3
*Model_Space
  1

  0
ENDBLK
  5
21
330
1F
100
AcDbEntity
  8
0
100
AcDbBlockEnd
  0
BLOCK
  5
1C
330
1B
100
AcDbEntity
 67
     1
  8
0
100
AcDbBlockBegin
  2
*Paper_Space
 70
     0
 10
0.0
 20
0.0
 30
0.0
  3
*Paper_Space
  1

  0
ENDBLK
  5
1D
330
1B
100
AcDbEntity
 67
     1
  8
0
100
AcDbBlockEnd
  0
BLOCK
  5
24
330
23
100
AcDbEntity
  8
0
100
AcDbBlockBegin
  2
*Paper_Space0
 70
     0
 10
0.0
 20
0.0
 30
0.0
  3
*Paper_Space0
  1

  0
ENDBLK
  5
25
330
23
100
AcDbEntity
  8
0
100
AcDbBlockEnd
  0
BLOCK
  5
89
330
88
100
AcDbEntity
  8
0
100
AcDbBlockBegin
  2
SW_CENTERMARKSYMBOL_0
 70
     0
 10
0.0
 20
0.0
 30
0.0
  3
SW_CENTERMARKSYMBOL_0
  1

  0
LINE
  5
8B
330
88
100
AcDbEntity
  8
FORMAT
 62
     0
100
AcDbLine
 10
0.0
 20
0.0
 30
0.0
 11
0.0
 21
2.5
 31
0.0
  0
LINE
  5
8C
330
88
100
AcDbEntity
  8
FORMAT
 62
     0
100
AcDbLine
 10
0.0
 20
0.0
 30
0.0
 11
-2.5
 21
0.0
 31
0.0
  0
LINE
  5
8D
330
88
100
AcDbEntity
  8
FORMAT
 62
     0
100
AcDbLine
 10
0.0
 20
0.0
 30
0.0
 11
0.0
 21
-2.5
 31
0.0
  0
LINE
  5
8E
330
88
100
AcDbEntity
  8
FORMAT
 62
     0
100
AcDbLine
 10
0.0
 20
0.0
 30
0.0
 11
2.5
 21
0.0
 31
0.0
  0
LINE
  5
8F
330
88
100
AcDbEntity
  8
FORMAT
 62
     0
100
AcDbLine
 10
0.0
 20
5.0
 30
0.0
 11
0.0
 21
18.5
 31
0.0
  0
LINE
  5
90
330
88
100
AcDbEntity
  8
FORMAT
 62
     0
100
AcDbLine
 10
-5.0
 20
0.0
 30
0.0
 11
-18.5
 21
0.0
 31
0.0
  0
LINE
  5
91
330
88
100
AcDbEntity
  8
FORMAT
 62
     0
100
AcDbLine
 10
0.0
 20
-5.0
 30
0.0
 11
0.0
 21
-18.5
 31
0.0
  0
LINE
  5
92
330
88
100
AcDbEntity
  8
FORMAT
 62
     0
100
AcDbLine
 10
5.0
 20
0.0
 30
0.0
 11
18.5
 21
0.0
 31
0.0
  0
ENDBLK
  5
8A
330
88
100
AcDbEntity
  8
0
100
AcDbBlockEnd
  0
ENDSEC
  0
SECTION
  2
ENTITIES
  0
CIRCLE
  5
83
330
1F
100
AcDbEntity
  8
0
  6
Continuous
 62
     7
370
    25
100
AcDbCircle
 10
139.395004093
 20
107.5851680021
 30
0.0
 40
16.00000000000001
  0
CIRCLE
  5
84
330
1F
100
AcDbEntity
  8
0
  6
Continuous
 62
     7
370
    25
100
AcDbCircle
 10
139.395004093
 20
107.5851680021
 30
0.0
 40
13.00000000000001
  0
CIRCLE
  5
85
330
1F
100
AcDbEntity
  8
0
  6
Continuous
 62
     7
370
    25
100
AcDbCircle
 10
139.395004093
 20
107.5851680021
 30
0.0
 40
12.98494481481238
  0
CIRCLE
  5
86
330
1F
100
AcDbEntity
  8
0
  6
Continuous
 62
     7
370
    25
100
AcDbCircle
 10
139.395004093
 20
107.5851680021
 30
0.0
 40
9.515055185187634
  0
CIRCLE
  5
87
330
1F
100
AcDbEntity
  8
0
  6
Continuous
 62
     7
370
    25
100
AcDbCircle
 10
139.395004093
 20
107.5851680021
 30
0.0
 40
9.5
  0
INSERT
  5
93
330
1F
100
AcDbEntity
  8
FORMAT
 62
     7
100
AcDbBlockReference
  2
SW_CENTERMARKSYMBOL_0
 10
139.395004093
 20
107.5851680021
 30
0.0
  0
LINE
  5
94
330
1F
100
AcDbEntity
  8
0
  6
Continuous
 62
     7
370
    25
100
AcDbLine
 10
-7.5801923095
 20
123.5851687621
 30
0.0
 11
-51.5025328068
 21
123.5851687621
 31
0.0
  0
LINE
  5
95
330
1F
100
AcDbEntity
  8
0
  6
Continuous
 62
     7
370
    25
100
AcDbLine
 10
-51.5025328068
 20
91.5851672422
 30
0.0
 11
-7.5801923095
 21
91.5851672422
 31
0.0
  0
ARC
  5
96
330
1F
100
AcDbEntity
  8
0
  6
Continuous
 62
     7
370
    25
100
AcDbCircle
 10
-7.5801926565
 20
121.5851680021
 30
0.0
 40
2.000000000000004
100
AcDbArc
 50
85.5526151499
 51
90.0
  0
ARC
  5
97
330
1F
100
AcDbEntity
  8
0
  6
Continuous
 62
     7
370
    25
100
AcDbCircle
 10
-7.5801926565
 20
93.5851680021
 30
0.0
 40
2.000000000000018
100
AcDbArc
 50
270.0
 51
274.4473848501
  0
LINE
  5
98
330
1F
100
AcDbEntity
  8
0
  6
Continuous
 62
     7
370
    25
100
AcDbLine
 10
-7.4251047491
 20
91.5911891739
 30
0.0
 11
37.4200404467
 21
95.0791458841
 31
0.0
  0
LINE
  5
99
330
1F
100
AcDbEntity
  8
0
  6
Continuous
 62
     7
370
    25
100
AcDbLine
 10
37.4200404467
 20
120.0911901201
 30
0.0
 11
-7.4251047491
 21
123.5791468303
 31
0.0
  0
ARC
  5
9A
330
1F
100
AcDbEntity
  8
0
  6
Continuous
 62
     7
370
    25
100
AcDbCircle
 10
37.5751283541
 20
122.0851680021
 30
0.0
 40
2.000000000000017
100
AcDbArc
 50
265.5526151499
 51
270.0
  0
ARC
  5
9B
330
1F
100
AcDbEntity
  8
0
  6
Continuous
 62
     7
370
    25
100
AcDbCircle
 10
37.5751283541
 20
93.0851680021
 30
0.0
 40
2.000000000000003
100
AcDbArc
 50
90.0
 51
94.4473848501
  0
LINE
  5
9C
330
1F
100
AcDbEntity
  8
0
  6
Continuous
 62
     7
370
    25
100
AcDbLine
 10
78.4974698754
 20
120.0851681884
 30
0.0
 11
37.5751280071
 21
120.0851681884
 31
0.0
  0
LINE
  5
9D
330
1F
100
AcDbEntity
  8
0
  6
Continuous
 62
     7
370
    25
100
AcDbLine
 10
37.5751280071
 20
95.0851678159
 30
0.0
 11
78.4974698754
 21
95.0851678159
 31
0.0
  0
LINE
  5
9E
330
1F
100
AcDbEntity
  8
0
  6
Continuous
 62
     7
370
    25
100
AcDbLine
 10
-51.5025328068
 20
123.5851687621
 30
0.0
 11
-51.5025328068
 21
91.5851672422
 31
0.0
  0
LINE
  5
9F
330
1F
100
AcDbEntity
  8
0
  6
Continuous
 62
     7
370
    25
100
AcDbLine
 10
78.4974698754
 20
120.0851681884
 30
0.0
 11
78.4974698754
 21
95.0851678159
 31
0.0
  0
LINE
  5
A0
330
1F
100
AcDbEntity
  8
0
  6
Continuous
 62
     1
370
    25
100
AcDbLine
 10
-7.5801923095
 20
123.5851687621
 30
0.0
 11
-7.5801923095
 21
91.5851672422
 31
0.0
  0
LINE
  5
A1
330
1F
100
AcDbEntity
  8
0
  6
Continuous
 62
     1
370
    25
100
AcDbLine
 10
-7.4251047491
 20
123.5791468303
 30
0.0
 11
-7.4251047491
 21
91.5911891739
 31
0.0
  0
LINE
  5
A2
330
1F
100
AcDbEntity
  8
0
  6
Continuous
 62
     1
370
    25
100
AcDbLine
 10
37.4200404467
 20
120.0911901201
 30
0.0
 11
37.4200404467
 21
95.0791458841
 31
0.0
  0
LINE
  5
A3
330
1F
100
AcDbEntity
  8
0
  6
Continuous
 62
     1
370
    25
100
AcDbLine
 10
37.5751280071
 20
120.0851681884
 30
0.0
 11
37.5751280071
 21
95.0851678159
 31
0.0
  0
LINE
  5
A4
330
1F
100
AcDbEntity
  8
0
  6
Continuous
 62
     7
370
    25
100
AcDbLine
 10
276.690001698
 20
91.5851672422
 30
0.0
 11
320.6123421953
 21
91.5851672422
 31
0.0
  0
LINE
  5
A5
330
1F
100
AcDbEntity
  8
0
  6
Continuous
 62
     7
370
    25
100
AcDbLine
 10
320.6123421953
 20
123.5851687621
 30
0.0
 11
276.690001698
 21
123.5851687621
 31
0.0
  0
ARC
  5
A6
330
1F
100
AcDbEntity
  8
0
  6
Continuous
 62
     7
370
    25
100
AcDbCircle
 10
276.690002045
 20
93.5851680021
 30
0.0
 40
2.000000000000015
100
AcDbArc
 50
265.5526151499
 51
270.0
  0
ARC
  5
A7
330
1F
100
AcDbEntity
  8
0
  6
Continuous
 62
     7
370
    25
100
AcDbCircle
 10
276.690002045
 20
121.5851680021
 30
0.0
 40
2.0
100
AcDbArc
 50
90.0
 51
94.4473848501
  0
LINE
  5
A8
330
1F
100
AcDbEntity
  8
0
  6
Continuous
 62
     7
370
    25
100
AcDbLine
 10
276.5349141376
 20
123.5791468303
 30
0.0
 11
231.6897689418
 21
120.0911901201
 31
0.0
  0
LINE
  5
A9
330
1F
100
AcDbEntity
  8
0
  6
Continuous
 62
     7
370
    25
100
AcDbLine
 10
231.6897689418
 20
95.0791458841
 30
0.0
 11
276.5349141376
 21
91.5911891739
 31
0.0
  0
ARC
  5
AA
330
1F
100
AcDbEntity
  8
0
  6
Continuous
 62
     7
370
    25
100
AcDbCircle
 10
231.5346810344
 20
93.0851680021
 30
0.0
 40
2.000000000000003
100
AcDbArc
 50
85.5526151499
 51
90.0
  0
ARC
  5
AB
330
1F
100
AcDbEntity
  8
0
  6
Continuous
 62
     7
370
    25
100
AcDbCircle
 10
231.5346810344
 20
122.0851680021
 30
0.0
 40
2.000000000000017
100
AcDbArc
 50
270.0
 51
274.4473848501
  0
LINE
  5
AC
330
1F
100
AcDbEntity
  8
0
  6
Continuous
 62
     7
370
    25
100
AcDbLine
 10
190.6123395131
 20
95.0851678159
 30
0.0
 11
231.5346813814
 21
95.0851678159
 31
0.0
  0
LINE
  5
AD
330
1F
100
AcDbEntity
  8
0
  6
Continuous
 62
     7
370
    25
100
AcDbLine
 10
231.5346813814
 20
120.0851681884
 30
0.0
 11
190.6123395131
 21
120.0851681884
 31
0.0
  0
LINE
  5
AE
330
1F
100
AcDbEntity
  8
0
  6
Continuous
 62
     7
370
    25
100
AcDbLine
 10
320.6123421953
 20
107.5851680021
 30
0.0
 11
320.6123421953
 21
123.5851687621
 31
0.0
  0
LINE
  5
AF
330
1F
100
AcDbEntity
  8
0
  6
Continuous
 62
     7
370
    25
100
AcDbLine
 10
320.6123421953
 20
91.5851672422
 30
0.0
 11
320.6123421953
 21
107.5851680021
 31
0.0
  0
LINE
  5
B0
330
1F
100
AcDbEntity
  8
0
  6
Continuous
 62
     7
370
    25
100
AcDbLine
 10
190.6123395131
 20
107.5851680021
 30
0.0
 11
190.6123395131
 21
120.0851681884
 31
0.0
  0
LINE
  5
B1
330
1F
100
AcDbEntity
  8
0
  6
Continuous
 62
     7
370
    25
100
AcDbLine
 10
190.6123395131
 20
95.0851678159
 30
0.0
 11
190.6123395131
 21
107.5851680021
 31
0.0
  0
LINE
  5
B2
330
1F
100
AcDbEntity
  8
0
  6
Continuous
 62
     1
370
    25
100
AcDbLine
 10
276.690001698
 20
107.5851680021
 30
0.0
 11
276.690001698
 21
123.5851687621
 31
0.0
  0
LINE
  5
B3
330
1F
100
AcDbEntity
  8
0
  6
Continuous
 62
     1
370
    25
100
AcDbLine
 10
276.690001698
 20
91.5851672422
 30
0.0
 11
276.690001698
 21
107.5851680021
 31
0.0
  0
LINE
  5
B4
330
1F
100
AcDbEntity
  8
0
  6
Continuous
 62
     1
370
    25
100
AcDbLine
 10
276.5349141376
 20
107.5851680021
 30
0.0
 11
276.5349141376
 21
123.5791468303
 31
0.0
  0
LINE
  5
B5
330
1F
100
AcDbEntity
  8
0
  6
Continuous
 62
     1
370
    25
100
AcDbLine
 10
276.5349141376
 20
91.5911891739
 30
0.0
 11
276.5349141376
 21
107.5851680021
 31
0.0
  0
LINE
  5
B6
330
1F
100
AcDbEntity
  8
0
  6
Continuous
 62
     1
370
    25
100
AcDbLine
 10
231.6897689418
 20
107.5851680021
 30
0.0
 11
231.6897689418
 21
120.0911901201
 31
0.0
  0
LINE
  5
B7
330
1F
100
AcDbEntity
  8
0
  6
Continuous
 62
     1
370
    25
100
AcDbLine
 10
231.6897689418
 20
95.0791458841
 30
0.0
 11
231.6897689418
 21
107.5851680021
 31
0.0
  0
LINE
  5
B8
330
1F
100
AcDbEntity
  8
0
  6
Continuous
 62
     1
370
    25
100
AcDbLine
 10
231.5346813814
 20
107.5851680021
 30
0.0
 11
231.5346813814
 21
120.0851681884
 31
0.0
  0
LINE
  5
B9
330
1F
100
AcDbEntity
  8
0
  6
Continuous
 62
     1
370
    25
100
AcDbLine
 10
231.5346813814
 20
95.0851678159
 30
0.0
 11
231.5346813814
 21
107.5851680021
 31
0.0
  0
LINE
  5
BA
330
1F
100
AcDbEntity
  8
0
  6
Continuous
 62
     7
370
    25
100
AcDbLine
 10
155.395004853
 20
243.3033404654
 30
0.0
 11
155.395004853
 21
287.2256809627
 31
0.0
  0
LINE
  5
BB
330
1F
100
AcDbEntity
  8
0
  6
Continuous
 62
     7
370
    25
100
AcDbLine
 10
123.3950033331
 20
287.2256809627
 30
0.0
 11
123.3950033331
 21
243.3033404654
 31
0.0
  0
ARC
  5
BC
330
1F
100
AcDbEntity
  8
0
  6
Continuous
 62
     7
370
    25
100
AcDbCircle
 10
153.395004093
 20
243.3033408124
 30
0.0
 40
2.000000000000031
100
AcDbArc
 50
355.5526151499
 51
0.0
  0
ARC
  5
BD
330
1F
100
AcDbEntity
  8
0
  6
Continuous
 62
     7
370
    25
100
AcDbCircle
 10
125.395004093
 20
243.3033408124
 30
0.0
 40
2.000000000000003
100
AcDbArc
 50
180.0
 51
184.4473848501
  0
LINE
  5
BE
330
1F
100
AcDbEntity
  8
0
  6
Continuous
 62
     7
370
    25
100
AcDbLine
 10
123.4010252649
 20
243.1482529049
 30
0.0
 11
126.888981975
 21
198.3031077092
 31
0.0
  0
LINE
  5
BF
330
1F
100
AcDbEntity
  8
0
  6
Continuous
 62
     7
370
    25
100
AcDbLine
 10
151.9010262111
 20
198.3031077092
 30
0.0
 11
155.3889829212
 21
243.1482529049
 31
0.0
  0
ARC
  5
C0
330
1F
100
AcDbEntity
  8
0
  6
Continuous
 62
     7
370
    25
100
AcDbCircle
 10
153.895004093
 20
198.1480198017
 30
0.0
 40
2.0
100
AcDbArc
 50
175.5526151499
 51
180.0
  0
ARC
  5
C1
330
1F
100
AcDbEntity
  8
0
  6
Continuous
 62
     7
370
    25
100
AcDbCircle
 10
124.895004093
 20
198.1480198017
 30
0.0
 40
2.0
100
AcDbArc
 50
0.0
 51
4.4473848501
  0
LINE
  5
C2
330
1F
100
AcDbEntity
  8
0
  6
Continuous
 62
     7
370
    25
100
AcDbLine
 10
151.8950042793
 20
157.2256782805
 30
0.0
 11
151.8950042793
 21
198.1480201488
 31
0.0
  0
LINE
  5
C3
330
1F
100
AcDbEntity
  8
0
  6
Continuous
 62
     7
370
    25
100
AcDbLine
 10
126.8950039068
 20
198.1480201488
 30
0.0
 11
126.8950039068
 21
157.2256782805
 31
0.0
  0
LINE
  5
C4
330
1F
100
AcDbEntity
  8
0
  6
Continuous
 62
     7
370
    25
100
AcDbLine
 10
155.395004853
 20
287.2256809627
 30
0.0
 11
123.3950033331
 21
287.2256809627
 31
0.0
  0
LINE
  5
C5
330
1F
100
AcDbEntity
  8
0
  6
Continuous
 62
     7
370
    25
100
AcDbLine
 10
151.8950042793
 20
157.2256782805
 30
0.0
 11
126.8950039068
 21
157.2256782805
 31
0.0
  0
LINE
  5
C6
330
1F
100
AcDbEntity
  8
0
  6
Continuous
 62
     1
370
    25
100
AcDbLine
 10
155.395004853
 20
243.3033404654
 30
0.0
 11
123.3950033331
 21
243.3033404654
 31
0.0
  0
LINE
  5
C7
330
1F
100
AcDbEntity
  8
0
  6
Continuous
 62
     1
370
    25
100
AcDbLine
 10
155.3889829212
 20
243.1482529049
 30
0.0
 11
123.4010252649
 21
243.1482529049
 31
0.0
  0
LINE
  5
C8
330
1F
100
AcDbEntity
  8
0
  6
Continuous
 62
     1
370
    25
100
AcDbLine
 10
151.9010262111
 20
198.3031077092
 30
0.0
 11
126.888981975
 21
198.3031077092
 31
0.0
  0
LINE
  5
C9
330
1F
100
AcDbEntity
  8
0
  6
Continuous
 62
     1
370
    25
100
AcDbLine
 10
151.8950042793
 20
198.1480201488
 30
0.0
 11
126.8950039068
 21
198.1480201488
 31
0.0
  0
LINE
  5
CA
330
1F
100
AcDbEntity
  8
0
  6
Continuous
 62
     7
370
    25
100
AcDbLine
 10
123.3950033331
 20
-35.5806312634
 30
0.0
 11
123.3950033331
 21
-79.5029717608
 31
0.0
  0
LINE
  5
CB
330
1F
100
AcDbEntity
  8
0
  6
Continuous
 62
     7
370
    25
100
AcDbLine
 10
155.395004853
 20
-79.5029717608
 30
0.0
 11
155.395004853
 21
-35.5806312634
 31
0.0
  0
ARC
  5
CC
330
1F
100
AcDbEntity
  8
0
  6
Continuous
 62
     7
370
    25
100
AcDbCircle
 10
125.395004093
 20
-35.5806316105
 30
0.0
 40
2.000000000000004
100
AcDbArc
 50
175.5526151499
 51
180.0
  0
ARC
  5
CD
330
1F
100
AcDbEntity
  8
0
  6
Continuous
 62
     7
370
    25
100
AcDbCircle
 10
153.395004093
 20
-35.5806316105
 30
0.0
 40
2.000000000000032
100
AcDbArc
 50
0.0
 51
4.4473848501
  0
LINE
  5
CE
330
1F
100
AcDbEntity
  8
0
  6
Continuous
 62
     7
370
    25
100
AcDbLine
 10
155.3889829212
 20
-35.425543703
 30
0.0
 11
151.9010262111
 21
9.4196014927
 31
0.0
  0
LINE
  5
CF
330
1F
100
AcDbEntity
  8
0
  6
Continuous
 62
     7
370
    25
100
AcDbLine
 10
126.888981975
 20
9.4196014927
 30
0.0
 11
123.4010252649
 21
-35.425543703
 31
0.0
  0
ARC
  5
D0
330
1F
100
AcDbEntity
  8
0
  6
Continuous
 62
     7
370
    25
100
AcDbCircle
 10
124.895004093
 20
9.5746894002
 30
0.0
 40
2.000000000000003
100
AcDbArc
 50
355.5526151499
 51
0.0
  0
ARC
  5
D1
330
1F
100
AcDbEntity
  8
0
  6
Continuous
 62
     7
370
    25
100
AcDbCircle
 10
153.895004093
 20
9.5746894002
 30
0.0
 40
2.000000000000003
100
AcDbArc
 50
180.0
 51
184.4473848501
  0
LINE
  5
D2
330
1F
100
AcDbEntity
  8
0
  6
Continuous
 62
     7
370
    25
100
AcDbLine
 10
126.8950039068
 20
50.4970309214
 30
0.0
 11
126.8950039068
 21
9.5746890531
 31
0.0
  0
LINE
  5
D3
330
1F
100
AcDbEntity
  8
0
  6
Continuous
 62
     7
370
    25
100
AcDbLine
 10
151.8950042793
 20
9.5746890531
 30
0.0
 11
151.8950042793
 21
50.4970309214
 31
0.0
  0
LINE
  5
D4
330
1F
100
AcDbEntity
  8
0
  6
Continuous
 62
     7
370
    25
100
AcDbLine
 10
123.3950033331
 20
-79.5029717608
 30
0.0
 11
155.395004853
 21
-79.5029717608
 31
0.0
  0
LINE
  5
D5
330
1F
100
AcDbEntity
  8
0
  6
Continuous
 62
     7
370
    25
100
AcDbLine
 10
126.8950039068
 20
50.4970309214
 30
0.0
 11
151.8950042793
 21
50.4970309214
 31
0.0
  0
LINE
  5
D6
330
1F
100
AcDbEntity
  8
0
  6
Continuous
 62
     1
370
    25
100
AcDbLine
 10
123.3950033331
 20
-35.5806312634
 30
0.0
 11
155.395004853
 21
-35.5806312634
 31
0.0
  0
LINE
  5
D7
330
1F
100
AcDbEntity
  8
0
  6
Continuous
 62
     1
370
    25
100
AcDbLine
 10
123.4010252649
 20
-35.425543703
 30
0.0
 11
155.3889829212
 21
-35.425543703
 31
0.0
  0
LINE
  5
D8
330
1F
100
AcDbEntity
  8
0
  6
Continuous
 62
     1
370
    25
100
AcDbLine
 10
126.888981975
 20
9.4196014927
 30
0.0
 11
151.9010262111
 21
9.4196014927
 31
0.0
  0
LINE
  5
D9
330
1F
100
AcDbEntity
  8
0
  6
Continuous
 62
     1
370
    25
100
AcDbLine
 10
126.8950039068
 20
9.5746890531
 30
0.0
 11
151.8950042793
 21
9.5746890531
 31
0.0
  0
LINE
  5
DA
330
1F
100
AcDbEntity
  8
0
  6
Continuous
 62
     7
370
    25
100
AcDbLine
 10
246.4807906974
 20
27.3956043192
 30
0.0
 11
215.4230058861
 21
45.3248818553
 31
0.0
  0
LINE
  5
DB
330
1F
100
AcDbEntity
  8
0
  6
Continuous
 62
     7
370
    25
100
AcDbLine
 10
199.4243058529
 20
17.6113183165
 30
0.0
 11
230.4820906641
 21
-0.3179592197
 31
0.0
  0
SPLINE
  5
DC
330
1F
100
AcDbEntity
  8
0
  6
Continuous
 62
     7
370
    25
100
AcDbSpline
210
0.0
220
0.0
230
1.0
 70
     8
 71
     3
 72
     9
 73
     5
 74
     0
 42
0.000000001
 43
0.00000001
 40
0.0
 40
0.0
 40
0.0
 40
0.0
 40
0.8703480531771242
 40
1.0
 40
1.0
 40
1.0
 40
1.0
 10
247.0265719707324
 20
27.03588024029931
 30
0.0
 10
246.8617416576744
 20
27.157458454374
 30
0.0
 10
246.6723572930444
 20
27.29714764380906
 30
0.0
 10
246.4629182176211
 20
27.40251185323417
 30
0.0
 10
246.4357640337517
 20
27.41617252811158
 30
0.0
  0
SPLINE
  5
DD
330
1F
100
AcDbEntity
  8
0
  6
Continuous
 62
     7
370
    25
100
AcDbSpline
210
0.0
220
0.0
230
1.0
 70
     8
 71
     3
 72
     9
 73
     5
 74
     0
 42
0.000000001
 43
0.00000001
 40
0.0
 40
0.0
 40
0.0
 40
0.0
 40
0.678638035894963
 40
1.0
 40
1.0
 40
1.0
 40
1.0
 10
230.4766833551736
 20
-0.3031449108869561
 30
0.0
 10
230.6080316306661
 20
-0.3838090574516829
 30
0.0
 10
230.8015785121335
 20
-0.5026708693428358
 30
0.0
 10
231.0124442253774
 20
-0.5874370917924396
 30
0.0
 10
231.0802084451479
 20
-0.6146777315286095
 30
0.0
  0
LINE
  5
DE
330
1F
100
AcDbEntity
  8
0
  6
Continuous
 62
     7
370
    25
100
AcDbLine
 10
231.0467530671
 20
-0.6090230534
 30
0.0
 11
264.4023261072
 21
-15.8434463365
 31
0.0
  0
LINE
  5
DF
330
1F
100
AcDbEntity
  8
0
  6
Continuous
 62
     7
370
    25
100
AcDbLine
 10
276.8884024185
 20
5.7854159049
 30
0.0
 11
247.0152226147
 21
27.0521751857
 31
0.0
  0
LINE
  5
E0
330
1F
100
AcDbEntity
  8
0
  6
Continuous
 62
     7
370
    25
100
AcDbLine
 10
305.5970312121
 20
-10.7728174369
 30
0.0
 11
276.777676062
 21
5.8642421615
 31
0.0
  0
LINE
  5
E1
330
1F
100
AcDbEntity
  8
0
  6
Continuous
 62
     7
370
    25
100
AcDbLine
 10
264.2786922784
 20
-15.7869795196
 30
0.0
 11
293.0980474285
 21
-32.424039118
 31
0.0
  0
LWPOLYLINE
  5
E2
330
1F
100
AcDbEntity
  8
0
  6
Continuous
 62
     7
370
    25
100
AcDbPolyline
 90
       82
 70
   128
 43
0.0
 10
196.1099468331
 20
24.9368348811
 10
196.1439685595
 20
25.9688867722
 10
196.2458269556
 20
27.034011293
 10
196.4149095752
 20
28.1258024568
 10
196.6502009424
 20
29.2376949973
 10
196.9502845282
 20
30.3630013469
 10
197.313356579
 20
31.4949539352
 10
197.7372333614
 20
32.6267456835
 10
198.219364991
 20
33.751568407
 10
198.7568525548
 20
34.8626580601
 10
199.3464632578
 20
35.9533323785
 10
199.984650838
 20
37.0170323224
 10
200.6675779564
 20
38.0473608578
 10
201.3911366124
 20
39.038119837
 10
202.1509754731
 20
39.9833523922
 10
202.9425248983
 20
40.8773733514
 10
203.7610242696
 20
41.714805548
 10
204.6015516255
 20
42.490612898
 10
205.4590509904
 20
43.2001291053
 10
206.3283658786
 20
43.8390884093
 10
207.2042680022
 20
44.4036459606
 10
208.0814895198
 20
44.8904093652
 10
208.9547547284
 20
45.2964486148
 10
209.8188117149
 20
45.6193219639
 10
210.6684640281
 20
45.8570888899
 10
211.4986015272
 20
46.0083180156
 10
212.3042319511
 20
46.0721007711
 10
213.0805103877
 20
46.0480539576
 10
213.8227670979
 20
45.9363213605
 10
214.5265391256
 20
45.737574507
 10
215.1875940052
 20
45.4530103827
 10
215.8019547865
 20
45.0843385011
 10
216.3659283519
 20
44.6337774789
 10
216.8761212215
 20
44.1040360232
 10
217.3294665535
 20
43.4983015218
 10
217.7232366566
 20
42.8202149466
 10
218.0550640633
 20
42.073856023
 10
218.3229533837
 20
41.2637128099
 10
218.5252925008
 20
40.3946573642
 10
218.6608657416
 20
39.4719169367
 10
218.7288565108
 20
38.501040274
 10
218.7288565108
 20
37.4878667236
 10
218.6608657416
 20
36.4384895897
 10
218.5252925008
 20
35.3592196302
 10
218.3229533837
 20
34.2565484125
 10
218.0550640633
 20
33.1371067738
 10
217.7232366566
 20
32.0076280813
 10
217.3294665535
 20
30.8749042223
 10
216.8761212215
 20
29.7457483418
 10
216.3659283519
 20
28.6269507373
 10
215.8019547865
 20
27.5252396967
 10
215.1875940052
 20
26.4472419554
 10
214.5265391256
 20
25.399440113
 10
213.8227670979
 20
24.3881353722
 10
213.0805103877
 20
23.419411419
 10
212.3042319511
 20
22.4990926003
 10
211.4986015272
 20
21.6327142676
 10
210.6684640281
 20
20.825487038
 10
209.8188117149
 20
20.082266284
 10
208.9547547284
 20
19.4075206715
 10
208.0814895198
 20
18.8053093725
 10
207.2042680022
 20
18.2792543713
 10
206.3283658786
 20
17.8325168567
 10
205.4590509904
 20
17.4677865549
 10
204.6015516255
 20
17.1872550692
 10
203.7610242696
 20
16.9926101908
 10
202.9425248983
 20
16.8850231286
 10
202.1509754731
 20
16.8651405744
 10
201.3911366124
 20
16.9330818547
 10
200.6675779564
 20
17.0884377918
 10
199.984650838
 20
17.3302754597
 10
199.3464632578
 20
17.6571397076
 10
198.7568525548
 20
18.0670639985
 10
198.219364991
 20
18.5575837196
 10
197.7372333614
 20
19.1257491123
 10
197.313356579
 20
19.7681431449
 10
196.9502845282
 20
20.480901666
 10
196.6502009424
 20
21.2597388823
 10
196.4149095752
 20
22.0999697927
 10
196.2458269556
 20
22.9965423193
 10
196.1439685595
 20
23.9440636392
 10
196.1099468331
 20
24.9368348811
  0
LWPOLYLINE
  5
E3
330
1F
100
AcDbEntity
  8
0
  6
Continuous
 62
     7
370
    25
100
AcDbPolyline
 90
       74
 70
   128
 43
0.0
 10
198.2312675244
 20
26.1614472496
 10
198.2652964948
 20
27.0936107232
 10
198.3671305248
 20
28.0581612723
 10
198.5360155809
 20
29.0479576507
 10
198.7707017458
 20
30.0556719651
 10
199.0694511204
 20
31.073843287
 10
199.4300529708
 20
32.0949339257
 10
199.8498355819
 20
33.1113832294
 10
200.3256925994
 20
34.1156663292
 10
200.8541008101
 20
35.1003485099
 10
201.4311471425
 20
36.0581380601
 10
202.0525602769
 20
36.9819448245
 10
202.7137389629
 20
37.864928491
 10
203.4097882392
 20
38.7005529601
 10
204.1355546657
 20
39.4826302584
 10
204.8856653423
 20
40.2053712011
 10
205.6545662694
 20
40.8634242663
 10
206.4365648236
 20
41.451918368
 10
207.2258715548
 20
41.9664945889
 10
208.0166425598
 20
42.4033450911
 10
208.8030233573
 20
42.7592346425
 10
209.5791917346
 20
43.0315291538
 10
210.3394011912
 20
43.2182108719
 10
211.0780237236
 20
43.3179000373
 10
211.7895906134
 20
43.3298571376
 10
212.4688335045
 20
43.2539936931
 10
213.1107237511
 20
43.0908713973
 10
213.7105089669
 20
42.8416988813
 10
214.2637482567
 20
42.5083193538
 10
214.7663461325
 20
42.0932028021
 10
215.2145811592
 20
41.5994210851
 10
215.6051349309
 20
41.0306308198
 10
215.9351157788
 20
40.3910429606
 10
216.2020811612
 20
39.6853927587
 10
216.4040534691
 20
38.9189043997
 10
216.5395384649
 20
38.097252978
 10
216.6075331853
 20
37.2265219106
 10
216.6075331853
 20
36.3131573087
 10
216.5395384649
 20
35.3639212081
 10
216.4040534691
 20
34.3858421399
 10
216.2020811612
 20
33.3861615179
 10
215.9351157788
 20
32.3722796463
 10
215.6051349309
 20
31.3517040096
 10
215.2145811592
 20
30.3319899577
 10
214.7663461325
 20
29.3206870947
 10
214.2637482567
 20
28.3252833875
 10
213.7105089669
 20
27.3531473721
 10
213.1107237511
 20
26.4114775863
 10
212.4688335045
 20
25.5072445867
 10
211.7895906134
 20
24.647143993
 10
211.0780237236
 20
23.8375434498
 10
210.3394011912
 20
23.0844371916
 10
209.5791917346
 20
22.3933997538
 10
208.8030233573
 20
21.7695493316
 10
208.0166425598
 20
21.2175029402
 10
207.2258715548
 20
20.741348674
 10
206.4365648236
 20
20.3446107408
 10
205.6545662694
 20
20.0302285301
 10
204.8856653423
 20
19.8005274813
 10
204.1355546657
 20
19.6572090713
 10
203.4097882392
 20
19.6013342899
 10
202.7137389629
 20
19.6333173706
 10
202.0525602769
 20
19.7529203753
 10
201.4311471425
 20
19.9592588064
 10
200.8541008101
 20
20.2508048426
 10
200.3256925994
 20
20.6253998894
 10
199.8498355819
 20
21.0802701713
 10
199.4300529708
 20
21.6120487887
 10
199.0694511204
 20
22.216797393
 10
198.7707017458
 20
22.890040029
 10
198.5360155809
 20
23.6267914651
 10
198.3671305248
 20
24.4215973081
 10
198.2652964948
 20
25.2685727888
 10
198.2312675244
 20
26.1614472496
  0
LWPOLYLINE
  5
E4
330
1F
100
AcDbEntity
  8
0
  6
Continuous
 62
     7
370
    25
100
AcDbPolyline
 90
       38
 70
   128
 43
0.0
 10
305.5970312121
 20
-10.7728174369
 10
305.5975396085
 20
-10.7731102628
 10
306.1184792659
 20
-11.1288690836
 10
306.5878891327
 20
-11.5643062722
 10
307.0021946292
 20
-12.0761096771
 10
307.3582439614
 20
-12.6603835315
 10
307.6533272187
 20
-13.3126815348
 10
307.8851981058
 20
-14.0280387943
 10
308.0520923819
 20
-14.8010113708
 10
308.1527397147
 20
-15.6257164893
 10
308.1863742169
 20
-16.4958775025
 10
308.1527397147
 20
-17.4048720854
 10
308.0520923819
 20
-18.3457821408
 10
307.8851981058
 20
-19.311446747
 10
307.6533272187
 20
-20.2945164342
 10
307.3582439614
 20
-21.2875103146
 10
307.0021946292
 20
-22.2828699778
 10
306.5878891327
 20
-23.273020327
 10
306.1184792659
 20
-24.2504266116
 10
305.5975396085
 20
-25.2076495583
 10
305.0290326227
 20
-26.1374035441
 10
304.4172865924
 20
-27.0326141988
 10
303.7669567686
 20
-27.8864663103
 10
303.0829924426
 20
-28.6924631385
 10
302.3705987502
 20
-29.4444705174
 10
301.6351981469
 20
-30.1367641913
 10
300.8823869439
 20
-30.7640761984
 10
300.1178945607
 20
-31.3216320822
 10
299.3475393203
 20
-31.8051885781
 10
298.57718408
 20
-32.2110653106
 10
297.8126916968
 20
-32.5361735443
 10
297.0598804938
 20
-32.7780388513
 10
296.3244798905
 20
-32.9348206409
 10
295.6120861981
 20
-33.0053255116
 10
294.9281218721
 20
-32.9890170853
 10
294.2777920483
 20
-32.8860198058
 10
293.6660460179
 20
-32.6971160837
 10
293.0980474285
 20
-32.424039118
  0
LWPOLYLINE
  5
E5
330
1F
100
AcDbEntity
  8
0
  6
Continuous
 62
     1
370
    25
100
AcDbPolyline
 90
       42
 70
   128
 43
0.0
 10
246.4807906974
 20
27.3956043192
 10
246.8597395978
 20
27.1550609649
 10
247.4237131632
 20
26.7044999428
 10
247.9339060328
 20
26.1747584871
 10
248.3872513648
 20
25.5690239856
 10
248.7810214679
 20
24.8909374104
 10
249.1128488746
 20
24.1445784868
 10
249.380738195
 20
23.3344352738
 10
249.5830773121
 20
22.4653798281
 10
249.7186505529
 20
21.5426394006
 10
249.7866413221
 20
20.5717627378
 10
249.7866413221
 20
19.5585891875
 10
249.7186505529
 20
18.5092120536
 10
249.5830773121
 20
17.4299420941
 10
249.380738195
 20
16.3272708764
 10
249.1128488746
 20
15.2078292376
 10
248.7810214679
 20
14.0783505452
 10
248.3872513648
 20
12.9456266862
 10
247.9339060328
 20
11.8164708057
 10
247.4237131632
 20
10.6976732012
 10
246.8597395978
 20
9.5959621606
 10
246.2453788165
 20
8.5179644193
 10
245.5843239368
 20
7.4701625769
 10
244.8805519091
 20
6.458857836
 10
244.1382951989
 20
5.4901338829
 10
243.3620167624
 20
4.5698150642
 10
242.5563863385
 20
3.7034367314
 10
241.7262488394
 20
2.8962095019
 10
240.8765965262
 20
2.1529887479
 10
240.0125395397
 20
1.4782431353
 10
239.1392743311
 20
0.8760318364
 10
238.2620528135
 20
0.3499768352
 10
237.3861506899
 20
-0.0967606795
 10
236.5168358017
 20
-0.4614909812
 10
235.6593364368
 20
-0.7420224669
 10
234.8188090809
 20
-0.9366673453
 10
234.0003097096
 20
-1.0442544076
 10
233.2087602844
 20
-1.0641369617
 10
232.4489214236
 20
-0.9961956814
 10
231.7253627676
 20
-0.8408397444
 10
231.0424356493
 20
-0.5990020764
 10
230.4820906641
 20
-0.3179592197
  0
LWPOLYLINE
  5
E6
330
1F
100
AcDbEntity
  8
0
  6
Continuous
 62
     1
370
    25
100
AcDbPolyline
 90
       41
 70
   128
 43
0.0
 10
247.0273892245
 20
27.0434876567
 10
247.5300108078
 20
26.636237331
 10
248.040012041
 20
26.1066955148
 10
248.4931861514
 20
25.5011884078
 10
248.8868087405
 20
24.8233577422
 10
249.2185110238
 20
24.0772794411
 10
249.4862989283
 20
23.267440803
 10
249.6885616543
 20
22.3987121734
 10
249.8240835286
 20
21.476318902
 10
249.8920492731
 20
20.5058080243
 10
249.8920492731
 20
19.4930158461
 10
249.8240835286
 20
18.4440333901
 10
249.6885616543
 20
17.3651698932
 10
249.4862989283
 20
16.2629136909
 10
249.2185110238
 20
15.1438937193
 10
248.8868087405
 20
14.0148401139
 10
248.4931861514
 20
12.8825424805
 10
248.040012041
 20
11.7538116827
 10
247.5300108078
 20
10.6354349764
 10
246.9662499523
 20
9.5341387483
 10
246.3521196616
 20
8.4565463121
 10
245.6913143703
 20
7.4091395068
 10
244.9878070775
 20
6.398215733
 10
244.2458295902
 20
5.4298560154
 10
243.4698435474
 20
4.5098831799
 10
242.664516054
 20
3.6438310573
 10
241.8346910342
 20
2.8369081737
 10
240.985358609
 20
2.093967145
 10
240.1216267789
 20
1.4194761619
 10
239.248690184
 20
0.8174910698
 10
238.3717988442
 20
0.2916327599
 10
237.4962264044
 20
-0.1549357253
 10
236.6272386482
 20
-0.5195288892
 10
235.7700618054
 20
-0.7999547959
 10
234.9298512095
 20
-0.9945263194
 10
234.1116597077
 20
-1.1020725356
 10
233.3204082739
 20
-1.1219480834
 10
232.5608548922
 20
-1.0540328758
 10
231.8375688736
 20
-0.8987347595
 10
231.1548992462
 20
-0.656987991
 10
231.0706174029
 20
-0.6198527633
  0
LWPOLYLINE
  5
E7
330
1F
100
AcDbEntity
  8
0
  6
Continuous
 62
     1
370
    25
100
AcDbPolyline
 90
       37
 70
   128
 43
0.0
 10
276.8884024185
 20
5.7854159049
 10
277.0756127927
 20
5.6441488203
 10
277.5452478816
 20
5.2085009624
 10
277.9597535757
 20
4.6964511487
 10
278.315974788
 20
4.1118959069
 10
278.6111996324
 20
3.4592834389
 10
278.843182472
 20
2.7435816792
 10
279.0101570906
 20
1.9702366585
 10
279.1108524971
 20
1.1451340034
 10
279.1445034629
 20
0.2745539737
 10
279.1108524971
 20
-0.6348786343
 10
279.0101570906
 20
-1.576241731
 10
278.843182472
 20
-2.5423715428
 10
278.6111996324
 20
-3.5259149879
 10
278.315974788
 20
-4.5193868059
 10
277.9597535757
 20
-5.515226305
 10
277.5452478816
 20
-6.5058542062
 10
277.0756127927
 20
-7.4837311961
 10
276.5544215713
 20
-8.4414149598
 10
275.9856412895
 20
-9.3716172128
 10
275.3736002312
 20
-10.2672582618
 10
274.7229569403
 20
-11.1215225148
 10
274.0386630127
 20
-11.9279080987
 10
273.3259262187
 20
-12.6802770455
 10
272.5901713184
 20
-13.3729045294
 10
271.836997422
 20
-14.0005186914
 10
271.0721367477
 20
-14.5583426989
 10
270.3014104176
 20
-15.042132432
 10
269.5306840875
 20
-15.4482043785
 10
268.7658234132
 20
-15.7734697083
 10
268.0126495168
 20
-16.0154516172
 10
267.2768946165
 20
-16.1723086594
 10
266.5641578225
 20
-16.242848099
 10
265.8798638949
 20
-16.2265314667
 10
265.229220604
 20
-16.1234839673
 10
264.6171795457
 20
-15.9344904829
 10
264.4023261072
 20
-15.8434463365
  0
LWPOLYLINE
  5
E8
330
1F
100
AcDbEntity
  8
0
  6
Continuous
 62
     1
370
    25
100
AcDbPolyline
 90
       37
 70
   128
 43
0.0
 10
276.8084011146
 20
5.8423684415
 10
277.1820138288
 20
5.5757968444
 10
277.6514236956
 20
5.1403596559
 10
278.0657291921
 20
4.6285562509
 10
278.4217785243
 20
4.0442823965
 10
278.7168617816
 20
3.3919843932
 10
278.9487326687
 20
2.6766271337
 10
279.1156269448
 20
1.9036545572
 10
279.2162742776
 20
1.0789494387
 10
279.2499087798
 20
0.2087884255
 10
279.2162742776
 20
-0.7002061573
 10
279.1156269448
 20
-1.6411162128
 10
278.9487326687
 20
-2.6067808189
 10
278.7168617816
 20
-3.5898505062
 10
278.4217785243
 20
-4.5828443865
 10
278.0657291921
 20
-5.5782040497
 10
277.6514236956
 20
-6.568354399
 10
277.1820138288
 20
-7.5457606835
 10
276.6610741714
 20
-8.5029836303
 10
276.0925671856
 20
-9.4327376161
 10
275.4808211553
 20
-10.3279482707
 10
274.8304913315
 20
-11.1818003823
 10
274.1465270055
 20
-11.9877972104
 10
273.4341333131
 20
-12.7398045894
 10
272.6987327098
 20
-13.4320982633
 10
271.9459215068
 20
-14.0594102704
 10
271.1814291236
 20
-14.6169661542
 10
270.4110738832
 20
-15.1005226501
 10
269.6407186429
 20
-15.5063993826
 10
268.8762262597
 20
-15.8315076163
 10
268.1234150567
 20
-16.0733729233
 10
267.3880144534
 20
-16.2301547129
 10
266.675620761
 20
-16.3006595836
 10
265.991656435
 20
-16.2843511572
 10
265.3413266112
 20
-16.1813538778
 10
264.7295805808
 20
-15.9924501557
 10
264.3129991545
 20
-15.8026478183
  0
ENDSEC
  0
SECTION
  2
OBJECTS
  0
DICTIONARY
  5
C
330
0
100
AcDbDictionary
281
     1
  3
ACAD_GROUP
350
D
  3
ACAD_LAYOUT
350
1A
  3
ACAD_MLINESTYLE
350
17
  3
ACAD_PLOTSETTINGS
350
19
  3
ACAD_PLOTSTYLENAME
350
E
  3
ACAD_SCALELIST
350
47
  0
DICTIONARY
  5
D
102
{ACAD_REACTORS
330
C
102
}
330
C
100
AcDbDictionary
281
     1
  0
DICTIONARY
  5
1A
102
{ACAD_REACTORS
330
C
102
}
330
C
100
AcDbDictionary
281
     1
  3
Layout1
350
1E
  3
Layout2
350
26
  3
Model
350
22
  0
DICTIONARY
  5
17
102
{ACAD_REACTORS
330
C
102
}
330
C
100
AcDbDictionary
281
     1
  3
Standard
350
18
  0
DICTIONARY
  5
19
102
{ACAD_REACTORS
330
C
102
}
330
C
100
AcDbDictionary
281
     1
  0
ACDBDICTIONARYWDFLT
  5
E
102
{ACAD_REACTORS
330
C
102
}
330
C
100
AcDbDictionary
281
     1
  3
Normal
350
F
100
AcDbDictionaryWithDefault
340
F
  0
DICTIONARY
  5
47
102
{ACAD_REACTORS
330
C
102
}
330
C
100
AcDbDictionary
281
     1
  3
A0
350
48
  3
A1
350
49
  3
A2
350
4A
  3
A3
350
4B
  3
A4
350
4C
  3
A5
350
4D
  3
A6
350
4E
  3
A7
350
4F
  3
A8
350
50
  3
A9
350
51
  3
B0
350
52
  3
B1
350
53
  3
B2
350
54
  3
B3
350
55
  3
B4
350
56
  3
B5
350
57
  3
B6
350
58
  3
B7
350
59
  3
B8
350
5A
  3
B9
350
5B
  3
C0
350
5C
  3
C1
350
5D
  3
C2
350
5E
  3
C3
350
5F
  3
C4
350
60
  3
C5
350
61
  3
C6
350
62
  3
C7
350
63
  3
C8
350
64
  3
C9
350
65
  3
D0
350
66
  3
D1
350
67
  3
D2
350
68
  0
LAYOUT
  5
1E
102
{ACAD_REACTORS
330
1A
102
}
330
1A
100
AcDbPlotSettings
  1

  2
none_device
  4

  6

 40
0.0
 41
0.0
 42
0.0
 43
0.0
 44
0.0
 45
0.0
 46
0.0
 47
0.0
 48
0.0
 49
0.0
140
0.0
141
0.0
142
1.0
143
1.0
 70
   688
 72
     1
 73
     0
 74
     5
  7

 75
    16
147
1.0
148
0.0
149
0.0
100
AcDbLayout
  1
Layout1
 70
     1
 71
     1
 10
0.0
 20
0.0
 11
420.0
 21
297.0
 12
0.0
 22
0.0
 32
0.0
 14
1.0000000000E+20
 24
1.0000000000E+20
 34
1.0000000000E+20
 15
-1.0000000000E+20
 25
-1.0000000000E+20
 35
-1.0000000000E+20
146
0.0
 13
0.0
 23
0.0
 33
0.0
 16
1.0
 26
0.0
 36
0.0
 17
0.0
 27
1.0
 37
0.0
 76
     0
330
1B
  0
LAYOUT
  5
26
102
{ACAD_REACTORS
330
1A
102
}
330
1A
100
AcDbPlotSettings
  1

  2
none_device
  4

  6

 40
0.0
 41
0.0
 42
0.0
 43
0.0
 44
0.0
 45
0.0
 46
0.0
 47
0.0
 48
0.0
 49
0.0
140
0.0
141
0.0
142
1.0
143
1.0
 70
   688
 72
     1
 73
     0
 74
     5
  7

 75
    16
147
1.0
148
0.0
149
0.0
100
AcDbLayout
  1
Layout2
 70
     1
 71
     2
 10
0.0
 20
0.0
 11
0.0
 21
0.0
 12
0.0
 22
0.0
 32
0.0
 14
0.0
 24
0.0
 34
0.0
 15
0.0
 25
0.0
 35
0.0
146
0.0
 13
0.0
 23
0.0
 33
0.0
 16
1.0
 26
0.0
 36
0.0
 17
0.0
 27
1.0
 37
0.0
 76
     0
330
23
  0
LAYOUT
  5
22
102
{ACAD_REACTORS
330
1A
102
}
330
1A
100
AcDbPlotSettings
  1

  2
none_device
  4
Letter_(8.50_x_11.00_Inches)
  6

 40
6.35
 41
6.35
 42
6.35000508
 43
6.35000508
 44
215.9
 45
279.4
 46
0.0
 47
0.0
 48
0.0
 49
0.0
140
0.0
141
0.0
142
1.0
143
1.0
 70
  1712
 72
     1
 73
     0
 74
     0
  7

 75
     0
147
1.0
148
0.0
149
0.0
100
AcDbLayout
  1
Model
 70
     1
 71
     0
 10
0.0
 20
0.0
 11
279.4
 21
215.9
 12
0.0
 22
0.0
 32
0.0
 14
0.0
 24
0.0
 34
0.0
 15
279.4
 25
215.9
 35
0.0
146
0.0
 13
0.0
 23
0.0
 33
0.0
 16
1.0
 26
0.0
 36
0.0
 17
0.0
 27
1.0
 37
0.0
 76
     0
330
1F
331
29
  0
MLINESTYLE
  5
18
102
{ACAD_REACTORS
330
17
102
}
330
17
100
AcDbMlineStyle
  2
Standard
 70
     0
  3

 62
   256
 51
90.0
 52
90.0
 71
     2
 49
0.5
 62
   256
  6
BYLAYER
 49
-0.5
 62
   256
  6
BYLAYER
  0
ACDBPLACEHOLDER
  5
F
102
{ACAD_REACTORS
330
E
102
}
330
E
  0
SCALE
  5
48
102
{ACAD_REACTORS
330
47
102
}
330
47
100
AcDbScale
 70
     0
300
1:1
140
1.0
141
1.0
290
     1
  0
SCALE
  5
49
102
{ACAD_REACTORS
330
47
102
}
330
47
100
AcDbScale
 70
     0
300
1:2
140
1.0
141
2.0
290
     0
  0
SCALE
  5
4A
102
{ACAD_REACTORS
330
47
102
}
330
47
100
AcDbScale
 70
     0
300
1:4
140
1.0
141
4.0
290
     0
  0
SCALE
  5
4B
102
{ACAD_REACTORS
330
47
102
}
330
47
100
AcDbScale
 70
     0
300
1:5
140
1.0
141
5.0
290
     0
  0
SCALE
  5
4C
102
{ACAD_REACTORS
330
47
102
}
330
47
100
AcDbScale
 70
     0
300
1:8
140
1.0
141
8.0
290
     0
  0
SCALE
  5
4D
102
{ACAD_REACTORS
330
47
102
}
330
47
100
AcDbScale
 70
     0
300
1:10
140
1.0
141
10.0
290
     0
  0
SCALE
  5
4E
102
{ACAD_REACTORS
330
47
102
}
330
47
100
AcDbScale
 70
     0
300
1:16
140
1.0
141
16.0
290
     0
  0
SCALE
  5
4F
102
{ACAD_REACTORS
330
47
102
}
330
47
100
AcDbScale
 70
     0
300
1:20
140
1.0
141
20.0
290
     0
  0
SCALE
  5
50
102
{ACAD_REACTORS
330
47
102
}
330
47
100
AcDbScale
 70
     0
300
1:30
140
1.0
141
30.0
290
     0
  0
SCALE
  5
51
102
{ACAD_REACTORS
330
47
102
}
330
47
100
AcDbScale
 70
     0
300
1:40
140
1.0
141
40.0
290
     0
  0
SCALE
  5
52
102
{ACAD_REACTORS
330
47
102
}
330
47
100
AcDbScale
 70
     0
300
1:50
140
1.0
141
50.0
290
     0
  0
SCALE
  5
53
102
{ACAD_REACTORS
330
47
102
}
330
47
100
AcDbScale
 70
     0
300
1:100
140
1.0
141
100.0
290
     0
  0
SCALE
  5
54
102
{ACAD_REACTORS
330
47
102
}
330
47
100
AcDbScale
 70
     0
300
2:1
140
2.0
141
1.0
290
     0
  0
SCALE
  5
55
102
{ACAD_REACTORS
330
47
102
}
330
47
100
AcDbScale
 70
     0
300
4:1
140
4.0
141
1.0
290
     0
  0
SCALE
  5
56
102
{ACAD_REACTORS
330
47
102
}
330
47
100
AcDbScale
 70
     0
300
8:1
140
8.0
141
1.0
290
     0
  0
SCALE
  5
57
102
{ACAD_REACTORS
330
47
102
}
330
47
100
AcDbScale
 70
     0
300
10:1
140
10.0
141
1.0
290
     0
  0
SCALE
  5
58
102
{ACAD_REACTORS
330
47
102
}
330
47
100
AcDbScale
 70
     0
300
100:1
140
100.0
141
1.0
290
     0
  0
SCALE
  5
59
102
{ACAD_REACTORS
330
47
102
}
330
47
100
AcDbScale
 70
     0
300
1/128" = 1'-0"
140
0.0078125
141
12.0
290
     0
  0
SCALE
  5
5A
102
{ACAD_REACTORS
330
47
102
}
330
47
100
AcDbScale
 70
     0
300
1/64" = 1'-0"
140
0.015625
141
12.0
290
     0
  0
SCALE
  5
5B
102
{ACAD_REACTORS
330
47
102
}
330
47
100
AcDbScale
 70
     0
300
1/32" = 1'-0"
140
0.03125
141
12.0
290
     0
  0
SCALE
  5
5C
102
{ACAD_REACTORS
330
47
102
}
330
47
100
AcDbScale
 70
     0
300
1/16" = 1'-0"
140
0.0625
141
12.0
290
     0
  0
SCALE
  5
5D
102
{ACAD_REACTORS
330
47
102
}
330
47
100
AcDbScale
 70
     0
300
3/32" = 1'-0"
140
0.09375
141
12.0
290
     0
  0
SCALE
  5
5E
102
{ACAD_REACTORS
330
47
102
}
330
47
100
AcDbScale
 70
     0
300
1/8" = 1'-0"
140
0.125
141
12.0
290
     0
  0
SCALE
  5
5F
102
{ACAD_REACTORS
330
47
102
}
330
47
100
AcDbScale
 70
     0
300
3/16" = 1'-0"
140
0.1875
141
12.0
290
     0
  0
SCALE
  5
60
102
{ACAD_REACTORS
330
47
102
}
330
47
100
AcDbScale
 70
     0
300
1/4" = 1'-0"
140
0.25
141
12.0
290
     0
  0
SCALE
  5
61
102
{ACAD_REACTORS
330
47
102
}
330
47
100
AcDbScale
 70
     0
300
3/8" = 1'-0"
140
0.375
141
12.0
290
     0
  0
SCALE
  5
62
102
{ACAD_REACTORS
330
47
102
}
330
47
100
AcDbScale
 70
     0
300
1/2" = 1'-0"
140
0.5
141
12.0
290
     0
  0
SCALE
  5
63
102
{ACAD_REACTORS
330
47
102
}
330
47
100
AcDbScale
 70
     0
300
3/4" = 1'-0"
140
0.75
141
12.0
290
     0
  0
SCALE
  5
64
102
{ACAD_REACTORS
330
47
102
}
330
47
100
AcDbScale
 70
     0
300
1" = 1'-0"
140
1.0
141
12.0
290
     0
  0
SCALE
  5
65
102
{ACAD_REACTORS
330
47
102
}
330
47
100
AcDbScale
 70
     0
300
1-1/2" = 1'-0"
140
1.5
141
12.0
290
     0
  0
SCALE
  5
66
102
{ACAD_REACTORS
330
47
102
}
330
47
100
AcDbScale
 70
     0
300
3" = 1'-0"
140
3.0
141
12.0
290
     0
  0
SCALE
  5
67
102
{ACAD_REACTORS
330
47
102
}
330
47
100
AcDbScale
 70
     0
300
6" = 1'-0"
140
6.0
141
12.0
290
     0
  0
SCALE
  5
68
102
{ACAD_REACTORS
330
47
102
}
330
47
100
AcDbScale
 70
     0
300
1'-0" = 1'-0"
140
12.0
141
12.0
290
     0
  0
ENDSEC
  0
EOF
